 999
Therion DXF export
0
SECTION
2
HEADER
9
$ACADVER
1
AC1006
9
$INSBASE
10
0.0
20
0.0
30
0.0
9
$EXTMIN
10
342962.400
20
5162819.980
30
1533.500
9
$EXTMAX
10
343058.650
20
5162909.770
30
1622.400
0
ENDSEC
0
SECTION
2
TABLES
0
TABLE
2
LTYPE
70
1
0
LTYPE
2
CONTINUOUS
70
64
3
Solid line
72
65
73
0
40
0.000000
0
ENDTAB
0
TABLE
2
LAYER
70
6
0
LAYER
2
CENTERLINE
70
64
62
4
6
CONTINUOUS
0
LAYER
2
WALLS
70
64
62
7
6
CONTINUOUS
0
LAYER
2
SURFACE
70
64
62
3
6
CONTINUOUS
0
LAYER
2
SURFACE_CENTERLINE
70
64
62
8
6
CONTINUOUS
0
LAYER
2
BBOX
70
64
62
1
6
CONTINUOUS
0
ENDTAB
0
TABLE
2
STYLE
70
0
0
ENDTAB
0
ENDSEC
0
SECTION
2
BLOCKS
0
ENDSEC
0
SECTION
2
ENTITIES
0
LINE
8
CENTERLINE
10
342989.000
20
5162828.000
30
1573.000
11
342991.480
21
5162831.060
31
1571.660
0
LINE
8
CENTERLINE
10
342991.480
20
5162831.060
30
1571.660
11
342994.190
21
5162833.220
31
1572.330
0
LINE
8
CENTERLINE
10
342994.190
20
5162833.220
30
1572.330
11
342993.140
21
5162837.880
31
1575.610
0
LINE
8
CENTERLINE
10
342993.140
20
5162837.880
30
1575.610
11
343002.770
21
5162831.380
31
1567.980
0
LINE
8
CENTERLINE
10
343002.770
20
5162831.380
30
1567.980
11
343004.360
21
5162831.570
31
1567.680
0
LINE
8
CENTERLINE
10
343004.360
20
5162831.570
30
1567.680
11
343007.310
21
5162828.300
31
1565.540
0
LINE
8
CENTERLINE
10
343007.310
20
5162828.300
30
1565.540
11
343009.040
21
5162827.610
31
1564.730
0
LINE
8
CENTERLINE
10
343009.040
20
5162827.610
30
1564.730
11
343010.480
21
5162827.710
31
1561.670
0
LINE
8
CENTERLINE
10
342993.140
20
5162837.880
30
1575.610
11
342993.920
21
5162842.570
31
1577.620
0
LINE
8
CENTERLINE
10
342993.920
20
5162842.570
30
1577.620
11
342997.600
21
5162847.950
31
1580.110
0
LINE
8
CENTERLINE
10
342997.600
20
5162847.950
30
1580.110
11
342998.470
21
5162850.660
31
1580.760
0
LINE
8
CENTERLINE
10
342998.470
20
5162850.660
30
1580.760
11
342997.430
21
5162853.650
31
1582.620
0
LINE
8
CENTERLINE
10
342997.430
20
5162853.650
30
1582.620
11
342995.680
21
5162854.770
31
1583.470
0
LINE
8
CENTERLINE
10
342995.680
20
5162854.770
30
1583.470
11
342995.840
21
5162856.050
31
1583.600
0
LINE
8
CENTERLINE
10
342995.840
20
5162856.050
30
1583.600
11
342993.610
21
5162858.650
31
1585.440
0
LINE
8
CENTERLINE
10
342993.610
20
5162858.650
30
1585.440
11
342992.620
21
5162860.960
31
1587.930
0
LINE
8
CENTERLINE
10
342995.840
20
5162856.050
30
1583.600
11
342996.240
21
5162859.530
31
1581.720
0
LINE
8
CENTERLINE
10
342996.240
20
5162859.530
30
1581.720
11
342993.400
21
5162863.480
31
1581.890
0
LINE
8
CENTERLINE
10
342993.400
20
5162863.480
30
1581.890
11
342989.450
21
5162866.070
31
1586.270
0
LINE
8
CENTERLINE
10
342989.450
20
5162866.070
30
1586.270
11
342987.220
21
5162869.730
31
1587.680
0
LINE
8
CENTERLINE
10
342987.220
20
5162869.730
30
1587.680
11
342985.210
21
5162873.250
31
1588.340
0
LINE
8
CENTERLINE
10
342985.210
20
5162873.250
30
1588.340
11
342980.720
21
5162876.590
31
1590.420
0
LINE
8
CENTERLINE
10
342980.720
20
5162876.590
30
1590.420
11
342979.120
21
5162879.090
31
1595.830
0
LINE
8
CENTERLINE
10
342979.120
20
5162879.090
30
1595.830
11
342977.200
21
5162879.860
31
1597.660
0
LINE
8
CENTERLINE
10
342977.200
20
5162879.860
30
1597.660
11
342974.890
21
5162878.610
31
1602.830
0
LINE
8
CENTERLINE
10
342974.890
20
5162878.610
30
1602.830
11
342971.920
21
5162881.610
31
1601.400
0
LINE
8
CENTERLINE
10
342971.920
20
5162881.610
30
1601.400
11
342970.990
21
5162884.160
31
1600.290
0
LINE
8
CENTERLINE
10
342970.990
20
5162884.160
30
1600.290
11
342969.860
21
5162886.200
31
1599.540
0
LINE
8
CENTERLINE
10
342969.860
20
5162886.200
30
1599.540
11
342968.160
21
5162888.910
31
1598.380
0
LINE
8
CENTERLINE
10
342968.160
20
5162888.910
30
1598.380
11
342965.520
21
5162890.340
31
1599.820
0
LINE
8
CENTERLINE
10
342965.520
20
5162890.340
30
1599.820
11
342965.960
21
5162892.840
31
1599.860
0
LINE
8
CENTERLINE
10
342974.890
20
5162878.610
30
1602.830
11
342974.790
21
5162876.250
31
1605.110
0
LINE
8
CENTERLINE
10
342974.790
20
5162876.250
30
1605.110
11
342976.480
21
5162874.150
31
1606.250
0
LINE
8
CENTERLINE
10
342976.480
20
5162874.150
30
1606.250
11
342979.330
21
5162873.120
31
1605.600
0
LINE
8
CENTERLINE
10
342979.330
20
5162873.120
30
1605.600
11
342982.420
21
5162869.570
31
1604.540
0
LINE
8
CENTERLINE
10
342982.420
20
5162869.570
30
1604.540
11
342984.390
21
5162868.750
31
1601.850
0
LINE
8
CENTERLINE
10
342979.330
20
5162873.120
30
1605.600
11
342976.640
21
5162870.800
31
1610.980
0
LINE
8
CENTERLINE
10
342976.640
20
5162870.800
30
1610.980
11
342974.930
21
5162871.000
31
1611.610
0
LINE
8
CENTERLINE
10
342974.930
20
5162871.000
30
1611.610
11
342973.640
21
5162865.680
31
1606.470
0
LINE
8
CENTERLINE
10
342974.930
20
5162871.000
30
1611.610
11
342972.970
21
5162874.150
31
1613.690
0
LINE
8
CENTERLINE
10
342972.970
20
5162874.150
30
1613.690
11
342976.830
21
5162873.280
31
1611.760
0
LINE
8
CENTERLINE
10
342976.830
20
5162873.280
30
1611.760
11
342982.440
21
5162876.970
31
1606.880
0
LINE
8
CENTERLINE
10
342982.440
20
5162876.970
30
1606.880
11
342978.930
21
5162877.630
31
1611.450
0
LINE
8
CENTERLINE
10
342978.930
20
5162877.630
30
1611.450
11
342981.270
21
5162881.760
31
1611.450
0
LINE
8
CENTERLINE
10
342972.970
20
5162874.150
30
1613.690
11
342969.720
21
5162874.950
31
1615.110
0
LINE
8
CENTERLINE
10
342969.720
20
5162874.950
30
1615.110
11
342966.900
21
5162875.430
31
1618.270
0
LINE
8
CENTERLINE
10
342966.900
20
5162875.430
30
1618.270
11
342966.920
21
5162877.620
31
1618.380
0
LINE
8
CENTERLINE
10
342966.920
20
5162877.620
30
1618.380
11
342967.050
21
5162880.300
31
1620.630
0
LINE
8
CENTERLINE
10
342966.900
20
5162875.430
30
1618.270
11
342962.400
21
5162877.350
31
1622.400
0
LINE
8
CENTERLINE
10
342998.470
20
5162850.660
30
1580.760
11
343001.640
21
5162852.680
31
1582.190
0
LINE
8
CENTERLINE
10
343001.640
20
5162852.680
30
1582.190
11
343002.890
21
5162855.790
31
1581.920
0
LINE
8
CENTERLINE
10
343002.890
20
5162855.790
30
1581.920
11
343003.500
21
5162858.970
31
1581.960
0
LINE
8
CENTERLINE
10
343003.500
20
5162858.970
30
1581.960
11
343005.980
21
5162857.640
31
1578.990
0
LINE
8
CENTERLINE
10
343005.980
20
5162857.640
30
1578.990
11
343007.110
21
5162854.400
31
1577.130
0
LINE
8
CENTERLINE
10
343007.110
20
5162854.400
30
1577.130
11
343009.360
21
5162852.440
31
1573.460
0
LINE
8
CENTERLINE
10
343009.360
20
5162852.440
30
1573.460
11
343011.940
21
5162850.450
31
1569.930
0
LINE
8
CENTERLINE
10
343011.940
20
5162850.450
30
1569.930
11
343010.800
21
5162847.600
31
1568.250
0
LINE
8
CENTERLINE
10
343010.800
20
5162847.600
30
1568.250
11
343011.700
21
5162847.830
31
1567.370
0
LINE
8
CENTERLINE
10
343011.700
20
5162847.830
30
1567.370
11
343011.550
21
5162846.720
31
1565.830
0
LINE
8
CENTERLINE
10
343011.550
20
5162846.720
30
1565.830
11
343012.820
21
5162840.960
31
1562.050
0
LINE
8
CENTERLINE
10
343012.820
20
5162840.960
30
1562.050
11
343012.380
21
5162837.940
31
1561.250
0
LINE
8
CENTERLINE
10
343012.380
20
5162837.940
30
1561.250
11
343011.570
21
5162836.570
31
1561.610
0
LINE
8
CENTERLINE
10
343011.570
20
5162836.570
30
1561.610
11
343015.550
21
5162834.040
31
1555.630
0
LINE
8
CENTERLINE
10
343015.550
20
5162834.040
30
1555.630
11
343016.120
21
5162836.050
31
1555.860
0
LINE
8
CENTERLINE
10
343016.120
20
5162836.050
30
1555.860
11
343012.380
21
5162837.940
31
1561.250
0
LINE
8
CENTERLINE
10
343016.120
20
5162836.050
30
1555.860
11
343021.260
21
5162836.680
31
1557.810
0
LINE
8
CENTERLINE
10
343016.120
20
5162836.050
30
1555.860
11
343012.060
21
5162835.370
31
1553.640
0
LINE
8
CENTERLINE
10
343003.500
20
5162858.970
30
1581.960
11
343001.950
21
5162863.790
31
1584.240
0
LINE
8
CENTERLINE
10
343001.950
20
5162863.790
30
1584.240
11
343001.780
21
5162867.280
31
1584.150
0
LINE
8
CENTERLINE
10
343001.780
20
5162867.280
30
1584.150
11
343002.760
21
5162869.690
31
1582.330
0
LINE
8
CENTERLINE
10
343002.760
20
5162869.690
30
1582.330
11
343008.410
21
5162868.930
31
1575.650
0
LINE
8
CENTERLINE
10
343008.410
20
5162868.930
30
1575.650
11
343008.690
21
5162874.220
31
1576.720
0
LINE
8
CENTERLINE
10
343008.690
20
5162874.220
30
1576.720
11
343011.610
21
5162876.910
31
1572.870
0
LINE
8
CENTERLINE
10
343008.690
20
5162874.220
30
1576.720
11
343007.750
21
5162874.790
31
1576.370
0
LINE
8
CENTERLINE
10
343007.750
20
5162874.790
30
1576.370
11
343007.070
21
5162874.980
31
1576.000
0
LINE
8
CENTERLINE
10
343007.070
20
5162874.980
30
1576.000
11
343007.160
21
5162876.530
31
1574.170
0
LINE
8
CENTERLINE
10
343007.160
20
5162876.530
30
1574.170
11
343008.280
21
5162876.090
31
1569.530
0
LINE
8
CENTERLINE
10
343008.280
20
5162876.090
30
1569.530
11
343005.060
21
5162877.240
31
1567.820
0
LINE
8
CENTERLINE
10
343008.690
20
5162874.220
30
1576.720
11
343012.150
21
5162876.210
31
1572.840
0
LINE
8
CENTERLINE
10
343012.150
20
5162876.210
30
1572.840
11
343015.060
21
5162873.650
31
1572.880
0
LINE
8
CENTERLINE
10
343015.060
20
5162873.650
30
1572.880
11
343013.500
21
5162869.730
31
1573.220
0
LINE
8
CENTERLINE
10
343013.500
20
5162869.730
30
1573.220
11
343015.490
21
5162869.380
31
1571.610
0
LINE
8
CENTERLINE
10
343015.490
20
5162869.380
30
1571.610
11
343017.830
21
5162871.830
31
1572.550
0
LINE
8
CENTERLINE
10
343017.830
20
5162871.830
30
1572.550
11
343021.470
21
5162874.280
31
1573.150
0
LINE
8
CENTERLINE
10
343021.470
20
5162874.280
30
1573.150
11
343024.420
21
5162874.530
31
1574.790
0
LINE
8
CENTERLINE
10
343024.420
20
5162874.530
30
1574.790
11
343030.300
21
5162871.260
31
1576.540
0
LINE
8
CENTERLINE
10
343030.300
20
5162871.260
30
1576.540
11
343036.220
21
5162867.930
31
1578.320
0
LINE
8
CENTERLINE
10
343036.220
20
5162867.930
30
1578.320
11
343037.230
21
5162866.470
31
1578.740
0
LINE
8
CENTERLINE
10
343037.230
20
5162866.470
30
1578.740
11
343033.940
21
5162861.610
31
1587.540
0
LINE
8
CENTERLINE
10
343033.940
20
5162861.610
30
1587.540
11
343034.420
21
5162860.320
31
1587.620
0
LINE
8
CENTERLINE
10
343034.420
20
5162860.320
30
1587.620
11
343031.530
21
5162861.060
31
1588.790
0
LINE
8
CENTERLINE
10
343031.530
20
5162861.060
30
1588.790
11
343028.610
21
5162861.810
31
1589.980
0
LINE
8
CENTERLINE
10
343028.610
20
5162861.810
30
1589.980
11
343027.750
21
5162855.800
31
1585.660
0
LINE
8
CENTERLINE
10
343027.750
20
5162855.800
30
1585.660
11
343025.400
21
5162850.340
31
1580.550
0
LINE
8
CENTERLINE
10
343025.400
20
5162850.340
30
1580.550
11
343024.550
21
5162846.650
31
1575.120
0
LINE
8
CENTERLINE
10
343024.550
20
5162846.650
30
1575.120
11
343027.700
21
5162842.110
31
1571.790
0
LINE
8
CENTERLINE
10
343027.700
20
5162842.110
30
1571.790
11
343029.090
21
5162845.910
31
1571.610
0
LINE
8
CENTERLINE
10
343028.610
20
5162861.810
30
1589.980
11
343027.920
21
5162855.560
31
1585.230
0
LINE
8
CENTERLINE
10
343027.920
20
5162855.560
30
1585.230
11
343025.930
21
5162850.560
31
1580.260
0
LINE
8
CENTERLINE
10
343025.930
20
5162850.560
30
1580.260
11
343024.880
21
5162849.220
31
1577.500
0
LINE
8
CENTERLINE
10
343024.880
20
5162849.220
30
1577.500
11
343023.650
21
5162849.690
31
1576.350
0
LINE
8
CENTERLINE
10
343023.650
20
5162849.690
30
1576.350
11
343023.790
21
5162853.280
31
1572.640
0
LINE
8
CENTERLINE
10
343023.790
20
5162853.280
30
1572.640
11
343023.950
21
5162854.810
31
1571.720
0
LINE
8
CENTERLINE
10
343023.950
20
5162854.810
30
1571.720
11
343025.430
21
5162856.800
31
1568.550
0
LINE
8
CENTERLINE
10
343025.430
20
5162856.800
30
1568.550
11
343025.820
21
5162853.870
31
1567.800
0
LINE
8
CENTERLINE
10
343025.820
20
5162853.870
30
1567.800
11
343023.860
21
5162852.540
31
1567.830
0
LINE
8
CENTERLINE
10
343023.860
20
5162852.540
30
1567.830
11
343020.780
21
5162854.880
31
1568.630
0
LINE
8
CENTERLINE
10
343020.780
20
5162854.880
30
1568.630
11
343019.520
21
5162857.110
31
1569.610
0
LINE
8
CENTERLINE
10
343019.520
20
5162857.110
30
1569.610
11
343019.380
21
5162859.630
31
1571.240
0
LINE
8
CENTERLINE
10
343019.380
20
5162859.630
30
1571.240
11
343019.030
21
5162861.640
31
1571.440
0
LINE
8
CENTERLINE
10
343019.030
20
5162861.640
30
1571.440
11
343022.020
21
5162860.270
31
1570.250
0
LINE
8
CENTERLINE
10
343022.020
20
5162860.270
30
1570.250
11
343022.370
21
5162860.040
31
1569.160
0
LINE
8
CENTERLINE
10
343022.370
20
5162860.040
30
1569.160
11
343024.590
21
5162858.990
31
1569.000
0
LINE
8
CENTERLINE
10
343024.590
20
5162858.990
30
1569.000
11
343025.430
21
5162856.800
31
1568.550
0
LINE
8
CENTERLINE
10
343019.030
20
5162861.640
30
1571.440
11
343017.000
21
5162864.360
31
1572.990
0
LINE
8
CENTERLINE
10
343017.000
20
5162864.360
30
1572.990
11
343015.940
21
5162868.090
31
1574.800
0
LINE
8
CENTERLINE
10
343015.940
20
5162868.090
30
1574.800
11
343013.500
21
5162869.730
31
1573.220
0
LINE
8
CENTERLINE
10
343025.820
20
5162853.870
30
1567.800
11
343025.140
21
5162849.390
31
1567.580
0
LINE
8
CENTERLINE
10
343025.140
20
5162849.390
30
1567.580
11
343028.590
21
5162846.760
31
1570.870
0
LINE
8
CENTERLINE
10
343028.590
20
5162846.760
30
1570.870
11
343027.320
21
5162842.910
31
1571.050
0
LINE
8
CENTERLINE
10
343027.320
20
5162842.910
30
1571.050
11
343023.650
21
5162849.690
31
1576.350
0
LINE
8
CENTERLINE
10
343027.320
20
5162842.910
30
1571.050
11
343032.250
21
5162840.790
31
1569.000
0
LINE
8
CENTERLINE
10
343032.250
20
5162840.790
30
1569.000
11
343033.930
21
5162843.130
31
1567.780
0
LINE
8
CENTERLINE
10
343033.930
20
5162843.130
30
1567.780
11
343032.280
21
5162847.190
31
1566.850
0
LINE
8
CENTERLINE
10
343032.280
20
5162847.190
30
1566.850
11
343034.430
21
5162851.550
31
1569.040
0
LINE
8
CENTERLINE
10
343034.430
20
5162851.550
30
1569.040
11
343036.120
21
5162856.320
31
1571.870
0
LINE
8
CENTERLINE
10
343036.120
20
5162856.320
30
1571.870
11
343037.070
21
5162859.620
31
1573.620
0
LINE
8
CENTERLINE
10
343037.070
20
5162859.620
30
1573.620
11
343040.460
21
5162856.140
31
1575.380
0
LINE
8
CENTERLINE
10
343040.460
20
5162856.140
30
1575.380
11
343040.690
21
5162850.470
31
1576.030
0
LINE
8
CENTERLINE
10
343040.690
20
5162850.470
30
1576.030
11
343044.170
21
5162851.010
31
1579.490
0
LINE
8
CENTERLINE
10
343044.170
20
5162851.010
30
1579.490
11
343046.820
21
5162848.350
31
1583.790
0
LINE
8
CENTERLINE
10
343046.820
20
5162848.350
30
1583.790
11
343050.760
21
5162846.430
31
1586.240
0
LINE
8
CENTERLINE
10
343036.120
20
5162856.320
30
1571.870
11
343034.560
21
5162857.310
31
1578.470
0
LINE
8
CENTERLINE
10
343034.560
20
5162857.310
30
1578.470
11
343033.320
21
5162857.860
31
1578.650
0
LINE
8
CENTERLINE
10
343033.320
20
5162857.860
30
1578.650
11
343033.170
21
5162859.530
31
1585.300
0
LINE
8
CENTERLINE
10
343033.170
20
5162859.530
30
1585.300
11
343030.040
21
5162858.160
31
1587.010
0
LINE
8
CENTERLINE
10
343030.040
20
5162858.160
30
1587.010
11
343027.410
21
5162862.680
31
1587.860
0
LINE
8
CENTERLINE
10
343033.930
20
5162843.130
30
1567.780
11
343032.250
21
5162840.790
31
1569.000
0
LINE
8
CENTERLINE
10
343033.930
20
5162843.130
30
1567.780
11
343036.680
21
5162843.940
31
1567.300
0
LINE
8
CENTERLINE
10
343036.680
20
5162843.940
30
1567.300
11
343037.950
21
5162847.850
31
1563.860
0
LINE
8
CENTERLINE
10
343037.950
20
5162847.850
30
1563.860
11
343041.300
21
5162848.330
31
1562.640
0
LINE
8
CENTERLINE
10
343041.300
20
5162848.330
30
1562.640
11
343042.330
21
5162849.380
31
1554.020
0
LINE
8
CENTERLINE
10
343042.330
20
5162849.380
30
1554.020
11
343045.250
21
5162847.310
31
1551.020
0
LINE
8
CENTERLINE
10
343045.250
20
5162847.310
30
1551.020
11
343047.860
21
5162846.640
31
1550.030
0
LINE
8
CENTERLINE
10
343047.860
20
5162846.640
30
1550.030
11
343048.330
21
5162846.440
31
1546.290
0
LINE
8
CENTERLINE
10
343048.330
20
5162846.440
30
1546.290
11
343048.550
21
5162846.680
31
1542.200
0
LINE
8
CENTERLINE
10
343048.550
20
5162846.680
30
1542.200
11
343051.050
21
5162847.310
31
1540.280
0
LINE
8
CENTERLINE
10
343051.050
20
5162847.310
30
1540.280
11
343054.260
21
5162847.730
31
1537.750
0
LINE
8
CENTERLINE
10
343054.260
20
5162847.730
30
1537.750
11
343057.370
21
5162849.570
31
1535.930
0
LINE
8
CENTERLINE
10
343057.370
20
5162849.570
30
1535.930
11
343058.650
21
5162850.180
31
1533.500
0
LINE
8
CENTERLINE
10
343054.260
20
5162847.730
30
1537.750
11
343055.020
21
5162850.430
31
1538.770
0
LINE
8
CENTERLINE
10
343055.020
20
5162850.430
30
1538.770
11
343055.490
21
5162852.060
31
1540.160
0
LINE
8
CENTERLINE
10
343055.490
20
5162852.060
30
1540.160
11
343055.840
21
5162852.740
31
1540.760
0
LINE
8
CENTERLINE
10
343032.250
20
5162840.790
30
1569.000
11
343027.210
21
5162842.720
31
1571.050
0
LINE
8
CENTERLINE
10
343032.250
20
5162840.790
30
1569.000
11
343032.120
21
5162832.640
31
1570.020
0
LINE
8
CENTERLINE
10
343032.120
20
5162832.640
30
1570.020
11
343033.640
21
5162827.970
31
1570.430
0
LINE
8
CENTERLINE
10
343033.640
20
5162827.970
30
1570.430
11
343036.450
21
5162826.100
31
1572.270
0
LINE
8
CENTERLINE
10
343036.450
20
5162826.100
30
1572.270
11
343036.880
21
5162827.740
31
1571.130
0
LINE
8
CENTERLINE
10
343036.880
20
5162827.740
30
1571.130
11
343037.690
21
5162830.010
31
1572.500
0
LINE
8
CENTERLINE
10
343037.690
20
5162830.010
30
1572.500
11
343040.120
21
5162832.400
31
1576.220
0
LINE
8
CENTERLINE
10
343040.120
20
5162832.400
30
1576.220
11
343040.580
21
5162828.920
31
1576.630
0
LINE
8
CENTERLINE
10
343040.580
20
5162828.920
30
1576.630
11
343039.110
21
5162824.950
31
1573.980
0
LINE
8
CENTERLINE
10
343039.110
20
5162824.950
30
1573.980
11
343040.540
21
5162823.280
31
1576.030
0
LINE
8
CENTERLINE
10
343040.540
20
5162823.280
30
1576.030
11
343041.440
21
5162819.980
31
1578.910
0
LINE
8
CENTERLINE
10
343039.110
20
5162824.950
30
1573.980
11
343036.450
21
5162826.100
31
1572.270
0
LINE
8
CENTERLINE
10
343028.610
20
5162861.810
30
1589.980
11
343026.830
21
5162862.100
31
1588.770
0
LINE
8
CENTERLINE
10
343026.830
20
5162862.100
30
1588.770
11
343025.840
21
5162867.020
31
1587.140
0
LINE
8
CENTERLINE
10
343025.840
20
5162867.020
30
1587.140
11
343024.700
21
5162867.570
31
1585.080
0
LINE
8
CENTERLINE
10
343024.700
20
5162867.570
30
1585.080
11
343025.170
21
5162866.280
31
1584.500
0
LINE
8
CENTERLINE
10
343025.170
20
5162866.280
30
1584.500
11
343027.030
21
5162865.610
31
1579.600
0
LINE
8
CENTERLINE
10
343025.840
20
5162867.020
30
1587.140
11
343027.240
21
5162870.440
31
1588.970
0
LINE
8
CENTERLINE
10
343027.240
20
5162870.440
30
1588.970
11
343028.060
21
5162873.550
31
1587.920
0
LINE
8
CENTERLINE
10
343028.060
20
5162873.550
30
1587.920
11
343027.880
21
5162877.520
31
1585.800
0
LINE
8
CENTERLINE
10
343027.880
20
5162877.520
30
1585.800
11
343027.610
21
5162882.240
31
1586.320
0
LINE
8
CENTERLINE
10
343027.610
20
5162882.240
30
1586.320
11
343027.440
21
5162890.630
31
1588.360
0
LINE
8
CENTERLINE
10
343027.440
20
5162890.630
30
1588.360
11
343026.820
21
5162893.380
31
1588.280
0
LINE
8
CENTERLINE
10
343026.820
20
5162893.380
30
1588.280
11
343023.720
21
5162893.180
31
1588.910
0
LINE
8
CENTERLINE
10
343023.720
20
5162893.180
30
1588.910
11
343020.370
21
5162895.420
31
1592.050
0
LINE
8
CENTERLINE
10
343020.370
20
5162895.420
30
1592.050
11
343015.900
21
5162897.430
31
1598.680
0
LINE
8
CENTERLINE
10
343026.820
20
5162893.380
30
1588.280
11
343025.160
21
5162898.440
31
1590.490
0
LINE
8
CENTERLINE
10
343025.160
20
5162898.440
30
1590.490
11
343025.590
21
5162901.810
31
1591.880
0
LINE
8
CENTERLINE
10
343025.590
20
5162901.810
30
1591.880
11
343030.010
21
5162902.800
31
1594.660
0
LINE
8
CENTERLINE
10
343030.010
20
5162902.800
30
1594.660
11
343033.760
21
5162902.890
31
1596.470
0
LINE
8
CENTERLINE
10
343033.760
20
5162902.890
30
1596.470
11
343035.730
21
5162902.350
31
1599.070
0
LINE
8
CENTERLINE
10
343035.730
20
5162902.350
30
1599.070
11
343037.850
21
5162901.860
31
1601.480
0
LINE
8
CENTERLINE
10
343037.850
20
5162901.860
30
1601.480
11
343039.050
21
5162901.150
31
1603.470
0
LINE
8
CENTERLINE
10
343039.050
20
5162901.150
30
1603.470
11
343039.170
21
5162902.300
31
1604.550
0
LINE
8
CENTERLINE
10
343030.010
20
5162902.800
30
1594.660
11
343031.930
21
5162907.690
31
1599.210
0
LINE
8
CENTERLINE
10
343031.930
20
5162907.690
30
1599.210
11
343034.250
21
5162907.420
31
1602.520
0
LINE
8
CENTERLINE
10
343037.230
20
5162866.470
30
1578.740
11
343037.220
21
5162868.380
31
1579.690
0
LINE
8
CENTERLINE
10
343037.220
20
5162868.380
30
1579.690
11
343037.210
21
5162870.380
31
1580.660
0
LINE
8
CENTERLINE
10
343037.210
20
5162870.380
30
1580.660
11
343038.110
21
5162871.900
31
1581.350
0
LINE
8
CENTERLINE
10
343038.110
20
5162871.900
30
1581.350
11
343040.160
21
5162871.470
31
1581.980
0
LINE
8
CENTERLINE
10
343040.160
20
5162871.470
30
1581.980
11
343041.340
21
5162868.880
31
1581.840
0
LINE
8
CENTERLINE
10
343041.340
20
5162868.880
30
1581.840
11
343042.890
21
5162868.620
31
1581.910
0
LINE
8
CENTERLINE
10
343042.890
20
5162868.620
30
1581.910
11
343043.930
21
5162869.660
31
1582.480
0
LINE
8
CENTERLINE
10
343043.930
20
5162869.660
30
1582.480
11
343043.190
21
5162871.780
31
1583.240
0
LINE
8
CENTERLINE
10
343043.930
20
5162869.660
30
1582.480
11
343045.550
21
5162868.850
31
1582.650
0
LINE
8
CENTERLINE
10
343045.550
20
5162868.850
30
1582.650
11
343045.180
21
5162871.220
31
1582.360
0
LINE
8
CENTERLINE
10
343045.180
20
5162871.220
30
1582.360
11
343044.900
21
5162874.350
31
1581.890
0
LINE
8
CENTERLINE
10
343021.470
20
5162874.280
30
1573.150
11
343021.430
21
5162873.950
31
1569.090
0
LINE
8
CENTERLINE
10
343021.430
20
5162873.950
30
1569.090
11
343020.210
21
5162872.190
31
1569.230
0
LINE
8
CENTERLINE
10
343020.210
20
5162872.190
30
1569.230
11
343019.380
21
5162872.060
31
1568.530
0
LINE
8
CENTERLINE
10
343019.380
20
5162872.060
30
1568.530
11
343017.610
21
5162871.860
31
1567.150
0
LINE
8
CENTERLINE
10
343017.610
20
5162871.860
30
1567.150
11
343018.670
21
5162869.920
31
1566.420
0
LINE
8
CENTERLINE
10
343018.670
20
5162869.920
30
1566.420
11
343017.380
21
5162867.520
31
1565.110
0
LINE
8
CENTERLINE
10
343017.830
20
5162871.830
30
1572.550
11
343017.300
21
5162875.870
31
1571.850
0
LINE
8
CENTERLINE
10
343017.300
20
5162875.870
30
1571.850
11
343016.470
21
5162880.320
31
1571.880
0
LINE
8
CENTERLINE
10
343016.470
20
5162880.320
30
1571.880
11
343015.450
21
5162884.760
31
1572.750
0
LINE
8
CENTERLINE
10
343015.450
20
5162884.760
30
1572.750
11
343015.690
21
5162887.770
31
1573.740
0
LINE
8
CENTERLINE
10
343015.690
20
5162887.770
30
1573.740
11
343014.970
21
5162891.400
31
1574.150
0
LINE
8
CENTERLINE
10
343014.970
20
5162891.400
30
1574.150
11
343013.620
21
5162893.250
31
1574.760
0
LINE
8
CENTERLINE
10
343013.620
20
5162893.250
30
1574.760
11
343014.940
21
5162896.960
31
1575.260
0
LINE
8
CENTERLINE
10
343014.940
20
5162896.960
30
1575.260
11
343015.620
21
5162900.220
31
1576.310
0
LINE
8
CENTERLINE
10
343015.620
20
5162900.220
30
1576.310
11
343014.500
21
5162903.540
31
1576.260
0
LINE
8
CENTERLINE
10
343014.500
20
5162903.540
30
1576.260
11
343014.670
21
5162906.290
31
1576.150
0
LINE
8
CENTERLINE
10
343014.670
20
5162906.290
30
1576.150
11
343015.520
21
5162909.770
31
1576.190
0
LINE
8
CENTERLINE
10
343008.410
20
5162868.930
30
1575.650
11
343005.230
21
5162863.610
31
1576.160
0
LINE
8
CENTERLINE
10
342994.190
20
5162833.220
30
1572.330
11
342998.800
21
5162835.300
31
1568.890
0
LINE
8
CENTERLINE
10
342998.800
20
5162835.300
30
1568.890
11
342998.610
21
5162830.440
31
1568.050
0
LINE
8
CENTERLINE
10
342998.610
20
5162830.440
30
1568.050
11
342998.830
21
5162827.770
31
1569.090
0
LINE
8
CENTERLINE
10
342998.830
20
5162827.770
30
1569.090
11
342998.260
21
5162824.530
31
1568.560
0
LINE
8
CENTERLINE
10
342998.800
20
5162835.300
30
1568.890
11
342997.610
21
5162836.310
31
1570.070
0
LINE
8
CENTERLINE
10
342997.610
20
5162836.310
30
1570.070
11
342997.010
21
5162837.420
31
1570.580
0
LINE
8
CENTERLINE
10
342997.010
20
5162837.420
30
1570.580
11
342996.500
21
5162837.850
31
1571.220
0
LINE
8
CENTERLINE
10
342996.500
20
5162837.850
30
1571.220
11
342995.420
21
5162837.740
31
1573.290
0
LINE
8
CENTERLINE
10
342995.420
20
5162837.740
30
1573.290
11
342993.390
21
5162839.250
31
1573.720
0
LINE
8
CENTERLINE
10
342993.390
20
5162839.250
30
1573.720
11
342993.740
21
5162840.740
31
1573.570
0
LINE
8
CENTERLINE
10
342993.740
20
5162840.740
30
1573.570
11
342993.730
21
5162842.570
31
1573.580
0
LINE
8
CENTERLINE
10
342993.730
20
5162842.570
30
1573.580
11
342992.040
21
5162845.250
31
1575.150
0
LINE
8
CENTERLINE
10
342992.040
20
5162845.250
30
1575.150
11
342993.450
21
5162846.910
31
1575.110
0
LINE
8
CENTERLINE
10
342993.450
20
5162846.910
30
1575.110
11
342993.670
21
5162849.210
31
1574.820
0
LINE
8
CENTERLINE
10
342993.670
20
5162849.210
30
1574.820
11
342994.350
21
5162852.390
31
1575.130
0
LINE
8
CENTERLINE
10
342992.040
20
5162845.250
30
1575.150
11
342991.620
21
5162844.240
31
1576.290
0
LINE
8
CENTERLINE
10
342991.620
20
5162844.240
30
1576.290
11
342989.440
21
5162843.070
31
1576.970
0
LINE
8
CENTERLINE
10
342989.440
20
5162843.070
30
1576.970
11
342987.540
21
5162844.700
31
1577.030
0
LINE
8
CENTERLINE
10
342987.540
20
5162844.700
30
1577.030
11
342984.770
21
5162845.960
31
1578.980
0
LINE
8
CENTERLINE
10
342984.770
20
5162845.960
30
1578.980
11
342984.520
21
5162846.580
31
1580.100
0
LINE
8
CENTERLINE
10
342989.440
20
5162843.070
30
1576.970
11
342990.160
21
5162842.160
31
1576.390
0
LINE
8
CENTERLINE
10
342990.160
20
5162842.160
30
1576.390
11
342990.990
21
5162840.650
31
1575.640
0
LINE
8
CENTERLINE
10
342990.990
20
5162840.650
30
1575.640
11
342993.390
21
5162839.250
31
1573.720
0
LINE
8
BBOX
10
342962.400
20
5162819.980
30
1533.500
11
343058.650
21
5162819.980
31
1533.500
0
LINE
8
BBOX
10
342962.400
20
5162819.980
30
1533.500
11
342962.400
21
5162909.770
31
1533.500
0
LINE
8
BBOX
10
342962.400
20
5162819.980
30
1533.500
11
342962.400
21
5162819.980
31
1622.400
0
LINE
8
BBOX
10
343058.650
20
5162909.770
30
1622.400
11
342962.400
21
5162909.770
31
1622.400
0
LINE
8
BBOX
10
343058.650
20
5162909.770
30
1622.400
11
343058.650
21
5162819.980
31
1622.400
0
LINE
8
BBOX
10
343058.650
20
5162909.770
30
1622.400
11
343058.650
21
5162909.770
31
1533.500
0
LINE
8
BBOX
10
342962.400
20
5162819.980
30
1622.400
11
343058.650
21
5162819.980
31
1622.400
0
LINE
8
BBOX
10
342962.400
20
5162819.980
30
1622.400
11
342962.400
21
5162909.770
31
1622.400
0
LINE
8
BBOX
10
343058.650
20
5162819.980
30
1533.500
11
343058.650
21
5162819.980
31
1622.400
0
LINE
8
BBOX
10
343058.650
20
5162909.770
30
1533.500
11
342962.400
21
5162909.770
31
1533.500
0
LINE
8
BBOX
10
343058.650
20
5162909.770
30
1533.500
11
343058.650
21
5162819.980
31
1533.500
0
LINE
8
BBOX
10
342962.400
20
5162909.770
30
1622.400
11
342962.400
21
5162909.770
31
1533.500
0
ENDSEC
0
EOF