0
SECTION
2
HEADER
9
$ACADVER
1
AC1002
9
$INSUNITS
70
4
0
ENDSEC
0
SECTION
2
TABLES
0
TABLE
2
LTYPE
70
1
0
LTYPE
2
DASH
70
0
3
---
72
65
73
2
40
0,6
49
0,3
49
-0,3
0
ENDTAB
0
ENDSEC
0
SECTION
2
ENTITIES
0
LINE
8
Shots
62
1
10
-14027
20
-10668
11
-12387
21
-15175
0
CIRCLE
8
Shots
62
1
10
-12387
20
-15175
40
50
0
TEXT
8
Label
40
1
1
10.0
10
-12387
20
-15175
0
LINE
8
Shots
62
1
10
-22854
20
-16293
11
-21333
21
-24921
0
CIRCLE
8
Shots
62
1
10
-21333
20
-24921
40
50
0
TEXT
8
Label
40
1
1
9.0
10
-21333
20
-24921
0
LINE
8
Shots
62
1
10
-21045
20
-12032
11
-22854
21
-16293
0
CIRCLE
8
Shots
62
1
10
-22854
20
-16293
40
50
0
TEXT
8
Label
40
1
1
7.0
10
-22854
20
-16293
0
LINE
8
Shots
62
1
10
-21045
20
-12032
11
-23780
21
-18476
0
CIRCLE
8
Shots
62
1
10
-23780
20
-18476
40
50
0
TEXT
8
Label
40
1
1
4.0
10
-23780
20
-18476
0
LINE
8
Shots
62
1
10
-21045
20
-12032
11
-14027
21
-10668
0
CIRCLE
8
Shots
62
1
10
-14027
20
-10668
40
50
0
TEXT
8
Label
40
1
1
8.0
10
-14027
20
-10668
0
LINE
8
Shots
62
1
10
-16541
20
-21147
11
-21045
21
-12032
0
CIRCLE
8
Shots
62
1
10
-21045
20
-12032
40
50
0
TEXT
8
Label
40
1
1
6.0
10
-21045
20
-12032
0
LINE
8
Shots
62
1
10
-16541
20
-21147
11
-20906
21
-19914
0
CIRCLE
8
Shots
62
1
10
-20906
20
-19914
40
50
0
TEXT
8
Label
40
1
1
5.88
10
-20906
20
-19914
0
LINE
8
Shots
62
1
10
-16541
20
-21147
11
-20433
21
-21044
0
CIRCLE
8
Shots
62
1
10
-20433
20
-21044
40
50
0
TEXT
8
Label
40
1
1
5.87
10
-20433
20
-21044
0
LINE
8
Shots
62
1
10
-16541
20
-21147
11
-19679
21
-20761
0
CIRCLE
8
Shots
62
1
10
-19679
20
-20761
40
50
0
TEXT
8
Label
40
1
1
5.86
10
-19679
20
-20761
0
LINE
8
Shots
62
1
10
-16541
20
-21147
11
-19782
21
-20849
0
CIRCLE
8
Shots
62
1
10
-19782
20
-20849
40
50
0
TEXT
8
Label
40
1
1
5.85
10
-19782
20
-20849
0
LINE
8
Shots
62
1
10
-16541
20
-21147
11
-20321
21
-21084
0
CIRCLE
8
Shots
62
1
10
-20321
20
-21084
40
50
0
TEXT
8
Label
40
1
1
5.84
10
-20321
20
-21084
0
LINE
8
Shots
62
1
10
-16541
20
-21147
11
-20239
21
-21220
0
CIRCLE
8
Shots
62
1
10
-20239
20
-21220
40
50
0
TEXT
8
Label
40
1
1
5.83
10
-20239
20
-21220
0
LINE
8
Shots
62
1
10
-16541
20
-21147
11
-19397
21
-20733
0
CIRCLE
8
Shots
62
1
10
-19397
20
-20733
40
50
0
TEXT
8
Label
40
1
1
5.82
10
-19397
20
-20733
0
LINE
8
Shots
62
1
10
-16541
20
-21147
11
-19105
21
-20750
0
CIRCLE
8
Shots
62
1
10
-19105
20
-20750
40
50
0
TEXT
8
Label
40
1
1
5.81
10
-19105
20
-20750
0
LINE
8
Shots
62
1
10
-16541
20
-21147
11
-19729
21
-21766
0
CIRCLE
8
Shots
62
1
10
-19729
20
-21766
40
50
0
TEXT
8
Label
40
1
1
5.80
10
-19729
20
-21766
0
LINE
8
Shots
62
1
10
-16541
20
-21147
11
-19438
21
-21558
0
CIRCLE
8
Shots
62
1
10
-19438
20
-21558
40
50
0
TEXT
8
Label
40
1
1
5.79
10
-19438
20
-21558
0
LINE
8
Shots
62
1
10
-16541
20
-21147
11
-17635
21
-20946
0
CIRCLE
8
Shots
62
1
10
-17635
20
-20946
40
50
0
TEXT
8
Label
40
1
1
5.78
10
-17635
20
-20946
0
LINE
8
Shots
62
1
10
-16541
20
-21147
11
-16393
21
-20914
0
CIRCLE
8
Shots
62
1
10
-16393
20
-20914
40
50
0
TEXT
8
Label
40
1
1
5.77
10
-16393
20
-20914
0
LINE
8
Shots
62
1
10
-16541
20
-21147
11
-15517
21
-21033
0
CIRCLE
8
Shots
62
1
10
-15517
20
-21033
40
50
0
TEXT
8
Label
40
1
1
5.76
10
-15517
20
-21033
0
LINE
8
Shots
62
1
10
-16541
20
-21147
11
-15315
21
-20966
0
CIRCLE
8
Shots
62
1
10
-15315
20
-20966
40
50
0
TEXT
8
Label
40
1
1
5.75
10
-15315
20
-20966
0
LINE
8
Shots
62
1
10
-16541
20
-21147
11
-15207
21
-21113
0
CIRCLE
8
Shots
62
1
10
-15207
20
-21113
40
50
0
TEXT
8
Label
40
1
1
5.74
10
-15207
20
-21113
0
LINE
8
Shots
62
1
10
-16541
20
-21147
11
-14816
21
-21391
0
CIRCLE
8
Shots
62
1
10
-14816
20
-21391
40
50
0
TEXT
8
Label
40
1
1
5.73
10
-14816
20
-21391
0
LINE
8
Shots
62
1
10
-16541
20
-21147
11
-14925
21
-21147
0
CIRCLE
8
Shots
62
1
10
-14925
20
-21147
40
50
0
TEXT
8
Label
40
1
1
5.72
10
-14925
20
-21147
0
LINE
8
Shots
62
1
10
-16541
20
-21147
11
-14711
21
-21286
0
CIRCLE
8
Shots
62
1
10
-14711
20
-21286
40
50
0
TEXT
8
Label
40
1
1
5.71
10
-14711
20
-21286
0
LINE
8
Shots
62
1
10
-16541
20
-21147
11
-14381
21
-21307
0
CIRCLE
8
Shots
62
1
10
-14381
20
-21307
40
50
0
TEXT
8
Label
40
1
1
5.70
10
-14381
20
-21307
0
LINE
8
Shots
62
1
10
-16541
20
-21147
11
-14520
21
-21188
0
CIRCLE
8
Shots
62
1
10
-14520
20
-21188
40
50
0
TEXT
8
Label
40
1
1
5.69
10
-14520
20
-21188
0
LINE
8
Shots
62
1
10
-16541
20
-21147
11
-14498
21
-21177
0
CIRCLE
8
Shots
62
1
10
-14498
20
-21177
40
50
0
TEXT
8
Label
40
1
1
5.68
10
-14498
20
-21177
0
LINE
8
Shots
62
1
10
-16541
20
-21147
11
-14615
21
-20996
0
CIRCLE
8
Shots
62
1
10
-14615
20
-20996
40
50
0
TEXT
8
Label
40
1
1
5.67
10
-14615
20
-20996
0
LINE
8
Shots
62
1
10
-16541
20
-21147
11
-14503
21
-21117
0
CIRCLE
8
Shots
62
1
10
-14503
20
-21117
40
50
0
TEXT
8
Label
40
1
1
5.66
10
-14503
20
-21117
0
LINE
8
Shots
62
1
10
-16541
20
-21147
11
-14471
21
-20967
0
CIRCLE
8
Shots
62
1
10
-14471
20
-20967
40
50
0
TEXT
8
Label
40
1
1
5.65
10
-14471
20
-20967
0
LINE
8
Shots
62
1
10
-16541
20
-21147
11
-14478
21
-20911
0
CIRCLE
8
Shots
62
1
10
-14478
20
-20911
40
50
0
TEXT
8
Label
40
1
1
5.64
10
-14478
20
-20911
0
LINE
8
Shots
62
1
10
-16541
20
-21147
11
-15821
21
-23777
0
CIRCLE
8
Shots
62
1
10
-15821
20
-23777
40
50
0
TEXT
8
Label
40
1
1
5.63
10
-15821
20
-23777
0
LINE
8
Shots
62
1
10
-16541
20
-21147
11
-15166
21
-24076
0
CIRCLE
8
Shots
62
1
10
-15166
20
-24076
40
50
0
TEXT
8
Label
40
1
1
5.62
10
-15166
20
-24076
0
LINE
8
Shots
62
1
10
-16541
20
-21147
11
-15583
21
-24366
0
CIRCLE
8
Shots
62
1
10
-15583
20
-24366
40
50
0
TEXT
8
Label
40
1
1
5.61
10
-15583
20
-24366
0
LINE
8
Shots
62
1
10
-16541
20
-21147
11
-15463
21
-24369
0
CIRCLE
8
Shots
62
1
10
-15463
20
-24369
40
50
0
TEXT
8
Label
40
1
1
5.60
10
-15463
20
-24369
0
LINE
8
Shots
62
1
10
-16541
20
-21147
11
-15727
21
-24332
0
CIRCLE
8
Shots
62
1
10
-15727
20
-24332
40
50
0
TEXT
8
Label
40
1
1
5.59
10
-15727
20
-24332
0
LINE
8
Shots
62
1
10
-16541
20
-21147
11
-15716
21
-24218
0
CIRCLE
8
Shots
62
1
10
-15716
20
-24218
40
50
0
TEXT
8
Label
40
1
1
5.58
10
-15716
20
-24218
0
LINE
8
Shots
62
1
10
-16541
20
-21147
11
-15664
21
-24114
0
CIRCLE
8
Shots
62
1
10
-15664
20
-24114
40
50
0
TEXT
8
Label
40
1
1
5.57
10
-15664
20
-24114
0
LINE
8
Shots
62
1
10
-16541
20
-21147
11
-15525
21
-24016
0
CIRCLE
8
Shots
62
1
10
-15525
20
-24016
40
50
0
TEXT
8
Label
40
1
1
5.56
10
-15525
20
-24016
0
LINE
8
Shots
62
1
10
-16541
20
-21147
11
-15608
21
-23879
0
CIRCLE
8
Shots
62
1
10
-15608
20
-23879
40
50
0
TEXT
8
Label
40
1
1
5.55
10
-15608
20
-23879
0
LINE
8
Shots
62
1
10
-16541
20
-21147
11
-15217
21
-25141
0
CIRCLE
8
Shots
62
1
10
-15217
20
-25141
40
50
0
TEXT
8
Label
40
1
1
5.53
10
-15217
20
-25141
0
LINE
8
Shots
62
1
10
-16541
20
-21147
11
-14085
21
-27740
0
CIRCLE
8
Shots
62
1
10
-14085
20
-27740
40
50
0
TEXT
8
Label
40
1
1
5.52
10
-14085
20
-27740
0
LINE
8
Shots
62
1
10
-16541
20
-21147
11
-14145
21
-27042
0
CIRCLE
8
Shots
62
1
10
-14145
20
-27042
40
50
0
TEXT
8
Label
40
1
1
5.51
10
-14145
20
-27042
0
LINE
8
Shots
62
1
10
-16541
20
-21147
11
-14433
21
-25975
0
CIRCLE
8
Shots
62
1
10
-14433
20
-25975
40
50
0
TEXT
8
Label
40
1
1
5.50
10
-14433
20
-25975
0
LINE
8
Shots
62
1
10
-16541
20
-21147
11
-14108
21
-25797
0
CIRCLE
8
Shots
62
1
10
-14108
20
-25797
40
50
0
TEXT
8
Label
40
1
1
5.40
10
-14108
20
-25797
0
LINE
8
Shots
62
1
10
-16541
20
-21147
11
-14101
21
-25371
0
CIRCLE
8
Shots
62
1
10
-14101
20
-25371
40
50
0
TEXT
8
Label
40
1
1
5.39
10
-14101
20
-25371
0
LINE
8
Shots
62
1
10
-16541
20
-21147
11
-15316
21
-23122
0
CIRCLE
8
Shots
62
1
10
-15316
20
-23122
40
50
0
TEXT
8
Label
40
1
1
5.38
10
-15316
20
-23122
0
LINE
8
Shots
62
1
10
-16541
20
-21147
11
-15577
21
-23455
0
CIRCLE
8
Shots
62
1
10
-15577
20
-23455
40
50
0
TEXT
8
Label
40
1
1
5.37
10
-15577
20
-23455
0
LINE
8
Shots
62
1
10
-16541
20
-21147
11
-15875
21
-22793
0
CIRCLE
8
Shots
62
1
10
-15875
20
-22793
40
50
0
TEXT
8
Label
40
1
1
5.36
10
-15875
20
-22793
0
LINE
8
Shots
62
1
10
-16541
20
-21147
11
-15935
21
-22018
0
CIRCLE
8
Shots
62
1
10
-15935
20
-22018
40
50
0
TEXT
8
Label
40
1
1
5.35
10
-15935
20
-22018
0
LINE
8
Shots
62
1
10
-16541
20
-21147
11
-15896
21
-20474
0
CIRCLE
8
Shots
62
1
10
-15896
20
-20474
40
50
0
TEXT
8
Label
40
1
1
5.34
10
-15896
20
-20474
0
LINE
8
Shots
62
1
10
-16541
20
-21147
11
-16106
21
-18943
0
CIRCLE
8
Shots
62
1
10
-16106
20
-18943
40
50
0
TEXT
8
Label
40
1
1
5.33
10
-16106
20
-18943
0
LINE
8
Shots
62
1
10
-16541
20
-21147
11
-16163
21
-17922
0
CIRCLE
8
Shots
62
1
10
-16163
20
-17922
40
50
0
TEXT
8
Label
40
1
1
5.32
10
-16163
20
-17922
0
LINE
8
Shots
62
1
10
-16541
20
-21147
11
-16532
21
-17579
0
CIRCLE
8
Shots
62
1
10
-16532
20
-17579
40
50
0
TEXT
8
Label
40
1
1
5.31
10
-16532
20
-17579
0
LINE
8
Shots
62
1
10
-16541
20
-21147
11
-17196
21
-17322
0
CIRCLE
8
Shots
62
1
10
-17196
20
-17322
40
50
0
TEXT
8
Label
40
1
1
5.30
10
-17196
20
-17322
0
LINE
8
Shots
62
1
10
-16541
20
-21147
11
-17406
21
-16412
0
CIRCLE
8
Shots
62
1
10
-17406
20
-16412
40
50
0
TEXT
8
Label
40
1
1
5.29
10
-17406
20
-16412
0
LINE
8
Shots
62
1
10
-16541
20
-21147
11
-17540
21
-15976
0
CIRCLE
8
Shots
62
1
10
-17540
20
-15976
40
50
0
TEXT
8
Label
40
1
1
5.28
10
-17540
20
-15976
0
LINE
8
Shots
62
1
10
-16541
20
-21147
11
-17644
21
-15562
0
CIRCLE
8
Shots
62
1
10
-17644
20
-15562
40
50
0
TEXT
8
Label
40
1
1
5.27
10
-17644
20
-15562
0
LINE
8
Shots
62
1
10
-16541
20
-21147
11
-17562
21
-15719
0
CIRCLE
8
Shots
62
1
10
-17562
20
-15719
40
50
0
TEXT
8
Label
40
1
1
5.26
10
-17562
20
-15719
0
LINE
8
Shots
62
1
10
-16541
20
-21147
11
-17558
21
-15551
0
CIRCLE
8
Shots
62
1
10
-17558
20
-15551
40
50
0
TEXT
8
Label
40
1
1
5.25
10
-17558
20
-15551
0
LINE
8
Shots
62
1
10
-16541
20
-21147
11
-17623
21
-15339
0
CIRCLE
8
Shots
62
1
10
-17623
20
-15339
40
50
0
TEXT
8
Label
40
1
1
5.24
10
-17623
20
-15339
0
LINE
8
Shots
62
1
10
-16541
20
-21147
11
-17587
21
-15562
0
CIRCLE
8
Shots
62
1
10
-17587
20
-15562
40
50
0
TEXT
8
Label
40
1
1
5.23
10
-17587
20
-15562
0
LINE
8
Shots
62
1
10
-16541
20
-21147
11
-17569
21
-15543
0
CIRCLE
8
Shots
62
1
10
-17569
20
-15543
40
50
0
TEXT
8
Label
40
1
1
5.22
10
-17569
20
-15543
0
LINE
8
Shots
62
1
10
-16541
20
-21147
11
-17603
21
-15529
0
CIRCLE
8
Shots
62
1
10
-17603
20
-15529
40
50
0
TEXT
8
Label
40
1
1
5.21
10
-17603
20
-15529
0
LINE
8
Shots
62
1
10
-16541
20
-21147
11
-17630
21
-15541
0
CIRCLE
8
Shots
62
1
10
-17630
20
-15541
40
50
0
TEXT
8
Label
40
1
1
5.20
10
-17630
20
-15541
0
LINE
8
Shots
62
1
10
-16541
20
-21147
11
-17544
21
-16237
0
CIRCLE
8
Shots
62
1
10
-17544
20
-16237
40
50
0
TEXT
8
Label
40
1
1
5.19
10
-17544
20
-16237
0
LINE
8
Shots
62
1
10
-16541
20
-21147
11
-17596
21
-16160
0
CIRCLE
8
Shots
62
1
10
-17596
20
-16160
40
50
0
TEXT
8
Label
40
1
1
5.18
10
-17596
20
-16160
0
LINE
8
Shots
62
1
10
-16541
20
-21147
11
-17658
21
-16242
0
CIRCLE
8
Shots
62
1
10
-17658
20
-16242
40
50
0
TEXT
8
Label
40
1
1
5.17
10
-17658
20
-16242
0
LINE
8
Shots
62
1
10
-16541
20
-21147
11
-17706
21
-15618
0
CIRCLE
8
Shots
62
1
10
-17706
20
-15618
40
50
0
TEXT
8
Label
40
1
1
5.16
10
-17706
20
-15618
0
LINE
8
Shots
62
1
10
-16541
20
-21147
11
-15882
21
-21403
0
CIRCLE
8
Shots
62
1
10
-15882
20
-21403
40
50
0
TEXT
8
Label
40
1
1
5.15
10
-15882
20
-21403
0
LINE
8
Shots
62
1
10
-16541
20
-21147
11
-15301
21
-21950
0
CIRCLE
8
Shots
62
1
10
-15301
20
-21950
40
50
0
TEXT
8
Label
40
1
1
5.14
10
-15301
20
-21950
0
LINE
8
Shots
62
1
10
-16541
20
-21147
11
-15997
21
-23189
0
CIRCLE
8
Shots
62
1
10
-15997
20
-23189
40
50
0
TEXT
8
Label
40
1
1
5.13
10
-15997
20
-23189
0
LINE
8
Shots
62
1
10
-16541
20
-21147
11
-17713
21
-22707
0
CIRCLE
8
Shots
62
1
10
-17713
20
-22707
40
50
0
TEXT
8
Label
40
1
1
5.12
10
-17713
20
-22707
0
LINE
8
Shots
62
1
10
-16541
20
-21147
11
-17444
21
-19684
0
CIRCLE
8
Shots
62
1
10
-17444
20
-19684
40
50
0
TEXT
8
Label
40
1
1
5.11
10
-17444
20
-19684
0
LINE
8
Shots
62
1
10
-16541
20
-21147
11
-20290
21
-20166
0
CIRCLE
8
Shots
62
1
10
-20290
20
-20166
40
50
0
TEXT
8
Label
40
1
1
5.10
10
-20290
20
-20166
0
LINE
8
Shots
62
1
10
-16541
20
-21147
11
-17796
21
-23849
0
CIRCLE
8
Shots
62
1
10
-17796
20
-23849
40
50
0
TEXT
8
Label
40
1
1
5.9
10
-17796
20
-23849
0
LINE
8
Shots
62
1
10
-16541
20
-21147
11
-14666
21
-22706
0
CIRCLE
8
Shots
62
1
10
-14666
20
-22706
40
50
0
TEXT
8
Label
40
1
1
5.8
10
-14666
20
-22706
0
LINE
8
Shots
62
1
10
-16541
20
-21147
11
-15159
21
-23372
0
CIRCLE
8
Shots
62
1
10
-15159
20
-23372
40
50
0
TEXT
8
Label
40
1
1
5.7
10
-15159
20
-23372
0
LINE
8
Shots
62
1
10
-16541
20
-21147
11
-14665
21
-22302
0
CIRCLE
8
Shots
62
1
10
-14665
20
-22302
40
50
0
TEXT
8
Label
40
1
1
5.6
10
-14665
20
-22302
0
LINE
8
Shots
62
1
10
-16541
20
-21147
11
-14583
21
-21264
0
CIRCLE
8
Shots
62
1
10
-14583
20
-21264
40
50
0
TEXT
8
Label
40
1
1
5.5
10
-14583
20
-21264
0
LINE
8
Shots
62
1
10
-16541
20
-21147
11
-14679
21
-20290
0
CIRCLE
8
Shots
62
1
10
-14679
20
-20290
40
50
0
TEXT
8
Label
40
1
1
5.4
10
-14679
20
-20290
0
LINE
8
Shots
62
1
10
-16541
20
-21147
11
-15103
21
-19679
0
CIRCLE
8
Shots
62
1
10
-15103
20
-19679
40
50
0
TEXT
8
Label
40
1
1
5.3
10
-15103
20
-19679
0
LINE
8
Shots
62
1
10
-16541
20
-21147
11
-15010
21
-18611
0
CIRCLE
8
Shots
62
1
10
-15010
20
-18611
40
50
0
TEXT
8
Label
40
1
1
5.2
10
-15010
20
-18611
0
LINE
8
Shots
62
1
10
-16541
20
-21147
11
-14997
21
-16864
0
CIRCLE
8
Shots
62
1
10
-14997
20
-16864
40
50
0
TEXT
8
Label
40
1
1
5.1
10
-14997
20
-16864
0
LINE
8
Shots
62
1
10
-17284
20
-15744
11
-16541
21
-21147
0
CIRCLE
8
Shots
62
1
10
-16541
20
-21147
40
50
0
TEXT
8
Label
40
1
1
5.0
10
-16541
20
-21147
0
LINE
8
Shots
62
1
10
-17284
20
-15744
11
-21323
21
-19880
0
CIRCLE
8
Shots
62
1
10
-21323
20
-19880
40
50
0
TEXT
8
Label
40
1
1
4.28
10
-21323
20
-19880
0
LINE
8
Shots
62
1
10
-17284
20
-15744
11
-20573
21
-20386
0
CIRCLE
8
Shots
62
1
10
-20573
20
-20386
40
50
0
TEXT
8
Label
40
1
1
4.27
10
-20573
20
-20386
0
LINE
8
Shots
62
1
10
-17284
20
-15744
11
-21114
21
-20318
0
CIRCLE
8
Shots
62
1
10
-21114
20
-20318
40
50
0
TEXT
8
Label
40
1
1
4.26
10
-21114
20
-20318
0
LINE
8
Shots
62
1
10
-17284
20
-15744
11
-22332
21
-20126
0
CIRCLE
8
Shots
62
1
10
-22332
20
-20126
40
50
0
TEXT
8
Label
40
1
1
4.25
10
-22332
20
-20126
0
LINE
8
Shots
62
1
10
-17284
20
-15744
11
-16449
21
-23701
0
CIRCLE
8
Shots
62
1
10
-16449
20
-23701
40
50
0
TEXT
8
Label
40
1
1
4.24
10
-16449
20
-23701
0
LINE
8
Shots
62
1
10
-17284
20
-15744
11
-19033
21
-17193
0
CIRCLE
8
Shots
62
1
10
-19033
20
-17193
40
50
0
TEXT
8
Label
40
1
1
4.23
10
-19033
20
-17193
0
LINE
8
Shots
62
1
10
-17284
20
-15744
11
-9174
21
-9596
0
CIRCLE
8
Shots
62
1
10
-9174
20
-9596
40
50
0
TEXT
8
Label
40
1
1
4.22
10
-9174
20
-9596
0
LINE
8
Shots
62
1
10
-17284
20
-15744
11
-10696
21
-9824
0
CIRCLE
8
Shots
62
1
10
-10696
20
-9824
40
50
0
TEXT
8
Label
40
1
1
4.21
10
-10696
20
-9824
0
LINE
8
Shots
62
1
10
-17284
20
-15744
11
-11278
21
-8632
0
CIRCLE
8
Shots
62
1
10
-11278
20
-8632
40
50
0
TEXT
8
Label
40
1
1
4.20
10
-11278
20
-8632
0
LINE
8
Shots
62
1
10
-17284
20
-15744
11
-12848
21
-7003
0
CIRCLE
8
Shots
62
1
10
-12848
20
-7003
40
50
0
TEXT
8
Label
40
1
1
4.19
10
-12848
20
-7003
0
LINE
8
Shots
62
1
10
-17284
20
-15744
11
-13362
21
-6713
0
CIRCLE
8
Shots
62
1
10
-13362
20
-6713
40
50
0
TEXT
8
Label
40
1
1
4.18
10
-13362
20
-6713
0
LINE
8
Shots
62
1
10
-17284
20
-15744
11
-15216
21
-6285
0
CIRCLE
8
Shots
62
1
10
-15216
20
-6285
40
50
0
TEXT
8
Label
40
1
1
4.17
10
-15216
20
-6285
0
LINE
8
Shots
62
1
10
-17284
20
-15744
11
-16290
21
-7982
0
CIRCLE
8
Shots
62
1
10
-16290
20
-7982
40
50
0
TEXT
8
Label
40
1
1
4.16
10
-16290
20
-7982
0
LINE
8
Shots
62
1
10
-17284
20
-15744
11
-17153
21
-8331
0
CIRCLE
8
Shots
62
1
10
-17153
20
-8331
40
50
0
TEXT
8
Label
40
1
1
4.15
10
-17153
20
-8331
0
LINE
8
Shots
62
1
10
-17284
20
-15744
11
-18108
21
-9501
0
CIRCLE
8
Shots
62
1
10
-18108
20
-9501
40
50
0
TEXT
8
Label
40
1
1
4.14
10
-18108
20
-9501
0
LINE
8
Shots
62
1
10
-17284
20
-15744
11
-17503
21
-14711
0
CIRCLE
8
Shots
62
1
10
-17503
20
-14711
40
50
0
TEXT
8
Label
40
1
1
4.13
10
-17503
20
-14711
0
LINE
8
Shots
62
1
10
-17284
20
-15744
11
-17292
21
-15963
0
CIRCLE
8
Shots
62
1
10
-17292
20
-15963
40
50
0
TEXT
8
Label
40
1
1
4.12
10
-17292
20
-15963
0
LINE
8
Shots
62
1
10
-17284
20
-15744
11
-19931
21
-15680
0
CIRCLE
8
Shots
62
1
10
-19931
20
-15680
40
50
0
TEXT
8
Label
40
1
1
4.11
10
-19931
20
-15680
0
LINE
8
Shots
62
1
10
-17284
20
-15744
11
-20795
21
-16091
0
CIRCLE
8
Shots
62
1
10
-20795
20
-16091
40
50
0
TEXT
8
Label
40
1
1
4.10
10
-20795
20
-16091
0
LINE
8
Shots
62
1
10
-17284
20
-15744
11
-26641
21
-16828
0
CIRCLE
8
Shots
62
1
10
-26641
20
-16828
40
50
0
TEXT
8
Label
40
1
1
4.9
10
-26641
20
-16828
0
LINE
8
Shots
62
1
10
-17284
20
-15744
11
-24238
21
-14918
0
CIRCLE
8
Shots
62
1
10
-24238
20
-14918
40
50
0
TEXT
8
Label
40
1
1
4.8
10
-24238
20
-14918
0
LINE
8
Shots
62
1
10
-17284
20
-15744
11
-23881
21
-14739
0
CIRCLE
8
Shots
62
1
10
-23881
20
-14739
40
50
0
TEXT
8
Label
40
1
1
4.7
10
-23881
20
-14739
0
LINE
8
Shots
62
1
10
-17284
20
-15744
11
-23380
21
-13834
0
CIRCLE
8
Shots
62
1
10
-23380
20
-13834
40
50
0
TEXT
8
Label
40
1
1
4.6
10
-23380
20
-13834
0
LINE
8
Shots
62
1
10
-17284
20
-15744
11
-22461
21
-12808
0
CIRCLE
8
Shots
62
1
10
-22461
20
-12808
40
50
0
TEXT
8
Label
40
1
1
4.5
10
-22461
20
-12808
0
LINE
8
Shots
62
1
10
-17284
20
-15744
11
-21417
21
-11255
0
CIRCLE
8
Shots
62
1
10
-21417
20
-11255
40
50
0
TEXT
8
Label
40
1
1
4.4
10
-21417
20
-11255
0
LINE
8
Shots
62
1
10
-17284
20
-15744
11
-17356
21
-9472
0
CIRCLE
8
Shots
62
1
10
-17356
20
-9472
40
50
0
TEXT
8
Label
40
1
1
4.3
10
-17356
20
-9472
0
LINE
8
Shots
62
1
10
-17284
20
-15744
11
-17560
21
-14633
0
CIRCLE
8
Shots
62
1
10
-17560
20
-14633
40
50
0
TEXT
8
Label
40
1
1
4.2
10
-17560
20
-14633
0
LINE
8
Shots
62
1
10
-17284
20
-15744
11
-17712
21
-23980
0
CIRCLE
8
Shots
62
1
10
-17712
20
-23980
40
50
0
TEXT
8
Label
40
1
1
4.1
10
-17712
20
-23980
0
LINE
8
Shots
62
1
10
-8162
20
-9993
11
-17284
21
-15744
0
CIRCLE
8
Shots
62
1
10
-17284
20
-15744
40
50
0
TEXT
8
Label
40
1
1
4.0
10
-17284
20
-15744
0
LINE
8
Shots
62
1
10
-8162
20
-9993
11
-8727
21
-11061
0
CIRCLE
8
Shots
62
1
10
-8727
20
-11061
40
50
0
TEXT
8
Label
40
1
1
3.14
10
-8727
20
-11061
0
LINE
8
Shots
62
1
10
-8162
20
-9993
11
-18396
21
-10430
0
CIRCLE
8
Shots
62
1
10
-18396
20
-10430
40
50
0
TEXT
8
Label
40
1
1
3.13
10
-18396
20
-10430
0
LINE
8
Shots
62
1
10
-8162
20
-9993
11
-16038
21
-9148
0
CIRCLE
8
Shots
62
1
10
-16038
20
-9148
40
50
0
TEXT
8
Label
40
1
1
3.12
10
-16038
20
-9148
0
LINE
8
Shots
62
1
10
-8162
20
-9993
11
-15704
21
-9885
0
CIRCLE
8
Shots
62
1
10
-15704
20
-9885
40
50
0
TEXT
8
Label
40
1
1
3.11
10
-15704
20
-9885
0
LINE
8
Shots
62
1
10
-8162
20
-9993
11
-13739
21
-7298
0
CIRCLE
8
Shots
62
1
10
-13739
20
-7298
40
50
0
TEXT
8
Label
40
1
1
3.10
10
-13739
20
-7298
0
LINE
8
Shots
62
1
10
-8162
20
-9993
11
-12521
21
-6970
0
CIRCLE
8
Shots
62
1
10
-12521
20
-6970
40
50
0
TEXT
8
Label
40
1
1
3.9
10
-12521
20
-6970
0
LINE
8
Shots
62
1
10
-8162
20
-9993
11
-12094
21
-6860
0
CIRCLE
8
Shots
62
1
10
-12094
20
-6860
40
50
0
TEXT
8
Label
40
1
1
3.8
10
-12094
20
-6860
0
LINE
8
Shots
62
1
10
-8162
20
-9993
11
-10275
21
-8196
0
CIRCLE
8
Shots
62
1
10
-10275
20
-8196
40
50
0
TEXT
8
Label
40
1
1
3.7
10
-10275
20
-8196
0
LINE
8
Shots
62
1
10
-8162
20
-9993
11
-8885
21
-9242
0
CIRCLE
8
Shots
62
1
10
-8885
20
-9242
40
50
0
TEXT
8
Label
40
1
1
3.6
10
-8885
20
-9242
0
LINE
8
Shots
62
1
10
-8162
20
-9993
11
-8483
21
-9695
0
CIRCLE
8
Shots
62
1
10
-8483
20
-9695
40
50
0
TEXT
8
Label
40
1
1
3.5
10
-8483
20
-9695
0
LINE
8
Shots
62
1
10
-8162
20
-9993
11
-8105
21
-10186
0
CIRCLE
8
Shots
62
1
10
-8105
20
-10186
40
50
0
TEXT
8
Label
40
1
1
3.4
10
-8105
20
-10186
0
LINE
8
Shots
62
1
10
-8162
20
-9993
11
-7812
21
-10515
0
CIRCLE
8
Shots
62
1
10
-7812
20
-10515
40
50
0
TEXT
8
Label
40
1
1
3.3
10
-7812
20
-10515
0
LINE
8
Shots
62
1
10
-8162
20
-9993
11
-6984
21
-11975
0
CIRCLE
8
Shots
62
1
10
-6984
20
-11975
40
50
0
TEXT
8
Label
40
1
1
3.2
10
-6984
20
-11975
0
LINE
8
Shots
62
1
10
-8162
20
-9993
11
-6083
21
-13888
0
CIRCLE
8
Shots
62
1
10
-6083
20
-13888
40
50
0
TEXT
8
Label
40
1
1
3.1
10
-6083
20
-13888
0
LINE
8
Shots
62
1
10
-3166
20
-3545
11
-8162
21
-9993
0
CIRCLE
8
Shots
62
1
10
-8162
20
-9993
40
50
0
TEXT
8
Label
40
1
1
3.0
10
-8162
20
-9993
0
LINE
8
Shots
62
1
10
-3166
20
-3545
11
-7814
21
-3190
0
CIRCLE
8
Shots
62
1
10
-7814
20
-3190
40
50
0
TEXT
8
Label
40
1
1
2.20
10
-7814
20
-3190
0
LINE
8
Shots
62
1
10
-3166
20
-3545
11
-7709
21
-3794
0
CIRCLE
8
Shots
62
1
10
-7709
20
-3794
40
50
0
TEXT
8
Label
40
1
1
2.19
10
-7709
20
-3794
0
LINE
8
Shots
62
1
10
-3166
20
-3545
11
-8582
21
-4483
0
CIRCLE
8
Shots
62
1
10
-8582
20
-4483
40
50
0
TEXT
8
Label
40
1
1
2.18
10
-8582
20
-4483
0
LINE
8
Shots
62
1
10
-3166
20
-3545
11
-8515
21
-5174
0
CIRCLE
8
Shots
62
1
10
-8515
20
-5174
40
50
0
TEXT
8
Label
40
1
1
2.17
10
-8515
20
-5174
0
LINE
8
Shots
62
1
10
-3166
20
-3545
11
-4231
21
-12325
0
CIRCLE
8
Shots
62
1
10
-4231
20
-12325
40
50
0
TEXT
8
Label
40
1
1
2.16
10
-4231
20
-12325
0
LINE
8
Shots
62
1
10
-3166
20
-3545
11
-2939
21
-10668
0
CIRCLE
8
Shots
62
1
10
-2939
20
-10668
40
50
0
TEXT
8
Label
40
1
1
2.15
10
-2939
20
-10668
0
LINE
8
Shots
62
1
10
-3166
20
-3545
11
-2039
21
-8210
0
CIRCLE
8
Shots
62
1
10
-2039
20
-8210
40
50
0
TEXT
8
Label
40
1
1
2.14
10
-2039
20
-8210
0
LINE
8
Shots
62
1
10
-3166
20
-3545
11
-2322
21
-4068
0
CIRCLE
8
Shots
62
1
10
-2322
20
-4068
40
50
0
TEXT
8
Label
40
1
1
2.13
10
-2322
20
-4068
0
LINE
8
Shots
62
1
10
-3166
20
-3545
11
-665
21
-4677
0
CIRCLE
8
Shots
62
1
10
-665
20
-4677
40
50
0
TEXT
8
Label
40
1
1
2.12
10
-665
20
-4677
0
LINE
8
Shots
62
1
10
-3166
20
-3545
11
-803
21
-4636
0
CIRCLE
8
Shots
62
1
10
-803
20
-4636
40
50
0
TEXT
8
Label
40
1
1
2.11
10
-803
20
-4636
0
LINE
8
Shots
62
1
10
-3166
20
-3545
11
-1713
21
-4096
0
CIRCLE
8
Shots
62
1
10
-1713
20
-4096
40
50
0
TEXT
8
Label
40
1
1
2.10
10
-1713
20
-4096
0
LINE
8
Shots
62
1
10
-3166
20
-3545
11
-2137
21
-3932
0
CIRCLE
8
Shots
62
1
10
-2137
20
-3932
40
50
0
TEXT
8
Label
40
1
1
2.9
10
-2137
20
-3932
0
LINE
8
Shots
62
1
10
-3166
20
-3545
11
-2608
21
-3861
0
CIRCLE
8
Shots
62
1
10
-2608
20
-3861
40
50
0
TEXT
8
Label
40
1
1
2.8
10
-2608
20
-3861
0
LINE
8
Shots
62
1
10
-3166
20
-3545
11
-3078
21
-3753
0
CIRCLE
8
Shots
62
1
10
-3078
20
-3753
40
50
0
TEXT
8
Label
40
1
1
2.7
10
-3078
20
-3753
0
LINE
8
Shots
62
1
10
-3166
20
-3545
11
-3608
21
-3557
0
CIRCLE
8
Shots
62
1
10
-3608
20
-3557
40
50
0
TEXT
8
Label
40
1
1
2.6
10
-3608
20
-3557
0
LINE
8
Shots
62
1
10
-3166
20
-3545
11
-3955
21
-3362
0
CIRCLE
8
Shots
62
1
10
-3955
20
-3362
40
50
0
TEXT
8
Label
40
1
1
2.5
10
-3955
20
-3362
0
LINE
8
Shots
62
1
10
-3166
20
-3545
11
-4881
21
-3021
0
CIRCLE
8
Shots
62
1
10
-4881
20
-3021
40
50
0
TEXT
8
Label
40
1
1
2.4
10
-4881
20
-3021
0
LINE
8
Shots
62
1
10
-3166
20
-3545
11
-5952
21
-2771
0
CIRCLE
8
Shots
62
1
10
-5952
20
-2771
40
50
0
TEXT
8
Label
40
1
1
2.3
10
-5952
20
-2771
0
LINE
8
Shots
62
1
10
-3166
20
-3545
11
-7027
21
-2425
0
CIRCLE
8
Shots
62
1
10
-7027
20
-2425
40
50
0
TEXT
8
Label
40
1
1
2.2
10
-7027
20
-2425
0
LINE
8
Shots
62
1
10
-3166
20
-3545
11
-6529
21
-2610
0
CIRCLE
8
Shots
62
1
10
-6529
20
-2610
40
50
0
TEXT
8
Label
40
1
1
2.1
10
-6529
20
-2610
0
LINE
8
Shots
62
1
10
0
20
0
11
-3166
21
-3545
0
CIRCLE
8
Shots
62
1
10
-3166
20
-3545
40
50
0
TEXT
8
Label
40
1
1
2.0
10
-3166
20
-3545
0
LINE
8
Shots
62
1
10
0
20
0
11
1009
21
-77
0
CIRCLE
8
Shots
62
1
10
1009
20
-77
40
50
0
TEXT
8
Label
40
1
1
1.7
10
1009
20
-77
0
LINE
8
Shots
62
1
10
0
20
0
11
2597
21
64
0
CIRCLE
8
Shots
62
1
10
2597
20
64
40
50
0
TEXT
8
Label
40
1
1
1.6
10
2597
20
64
0
LINE
8
Shots
62
1
10
0
20
0
11
4058
21
-122
0
CIRCLE
8
Shots
62
1
10
4058
20
-122
40
50
0
TEXT
8
Label
40
1
1
1.5
10
4058
20
-122
0
LINE
8
Shots
62
1
10
0
20
0
11
-3607
21
-490
0
CIRCLE
8
Shots
62
1
10
-3607
20
-490
40
50
0
TEXT
8
Label
40
1
1
1.4
10
-3607
20
-490
0
LINE
8
Shots
62
1
10
0
20
0
11
-8535
21
-84
0
CIRCLE
8
Shots
62
1
10
-8535
20
-84
40
50
0
TEXT
8
Label
40
1
1
1.3
10
-8535
20
-84
0
LINE
8
Shots
62
1
10
0
20
0
11
-7041
21
165
0
CIRCLE
8
Shots
62
1
10
-7041
20
165
40
50
0
TEXT
8
Label
40
1
1
1.2
10
-7041
20
165
0
LINE
8
Shots
62
1
10
0
20
0
11
-196
21
-470
0
CIRCLE
8
Shots
62
1
10
-196
20
-470
40
50
0
TEXT
8
Label
40
1
1
1.1
10
-196
20
-470
0
ENDSEC
0
EOF
